Ariel Camacho - Te Metiste - Tutorial - Requinto - Acordes - Como tocar en Guitarra

Carregando vídeo...

NUEVO VIDEO DE ESTA CANCION (hice un error):
https://www.youtube.com/watch?v=KSs6f3oMVtk

CORRECION EN LA PRIMERA PARTE DEL REQUINTO, NO ES MUCHA DIFERENCIA:
Intro - Requinto

E|--15--15--14--15--14--15--14--15--14--15--14--14----14--14----14--
B|--17--17--15--17--15--17--15--17--15--17--15--15----15--15----15--
G|------------------------------------------------------------------
D|------------------------------------------------------------------
A|------------------------------------------------------------------
E|------------------------------------------------------------------
******aqui hay una correcion***********

E|----10--10--12--14--10--14--10--14--10-----12--10--7-------7-----7------
B|----12--12--13--15--12--15--12--15--12-----13--12--8---8-----8-----8/
G|--------------------------------------------------------------------
D|-----------------------------------------------------------------
A|-----------------------------------------------------------------
E|-----------------------------------------------------------------
*******aqui tambien una correcion**********


E|--12--12--12--10--8---10--12-----12--12--12----8---8---
B|--13--13--13--12--10--12--13----13--13--13----10--10--
G|--_--------------------------------------------------
D|--_--------------------------------------------------
A|--_--------------------------------------------------
E|--_--------------------------------------------------


E|--14--12--12--10--10---8----8---7--7--5--5--3--3--2-----
B|--15--13--13--12--12--10--10--8--8--7--7--5--5--3-----
G|--_--------------------------------------------------
D|--_--------------------------------------------------
A|--_--------------------------------------------------
E|--_--------------------------------------------------


E|--5--8---7-----------------------------------------
B|--7--10--8--8--7--5--------------------------------
G|---------------------------7--5--4-----------------------
D|--------------------------------------7--5--5--5--5--5--5--
A|---------------------------------------------------
E|---------------------------------------------------


E|----------------------------------------------------------------
B|-----------------------------------------------5--7/8--5------------------
G|--4--4--4--4--4--4--7--7--7--7--7------------------7--5--4---------
D|--------------------------------------------------------------------------7--5--
A|----------------------------------------------------------------
E|----------------------------------------------------------------


E|--------------------
B|-------------------7/8--
G|--4--4--4h7---------
D|--------------------
A|--------------------
E|--------------------
Mi FACEBOOK: www.facebook.com/musicbyjorge
Por favor hagan like mi página en Facebook, es la mejor manera que puedo comunicarme con ustedes. Esfuerzo mucho para sus peticiones. Gracias amigos.

Veja o vídeo ᐅ